Refrigerador
Letra: Fher
FALTA AMOR (1.989)

intro:
    Bm  A    D     A           
e-2-2---------2-2---------2-2---------2-2------|
b-3-3--3-3--3-3--3-3--3-3--3-3--3-3--3--|
g-4-4--3-3--2-2--3-3--4-4--3-3--2-2--3--|
d-4-4--3-3---------3-3--4-4--3-3---------3--|
a-2-2-----------------------2-2--------------------|
e-x-x------------------------x-x--------------------| 

Versos:
igual ritmo que el intro   Bm A D A
llego de la fiesta muy frustrado pues nada cayo
Bm      A  D   A....etc 
el sol quiere salir me le adelanto para air a dormir
C#m    x46654    hold........................................Bm  A D A
y la vision me invita a ver que encuentro en el comedor
Bm    A    D     A   igual ritmo
abro yo la puerta y veo una nena en mi refrigerador 

coro
   Ahi     esta         una nena en mi   refrigerador
e---------------------------------------------------------------------------
b---------------------------------------------------------------------------
g---------------------------9-9-9-9-9-9-9-9--------------------------
d-9-9-9-9-9-9-9-9---9-9-9-9-9-9-9-9--9-9-9-9-9-9-9-9--
a-9-9-9-9-9-9-9-9---7-7-7-7-7-7-7-7--9-9-9-9-9-9-9-9--
e-7-7-7-7-7-7-7-7----------------------------7-7-7-7-7-7-7-7--

quien la metio ahi........repetir
e------------------------------
b------------------------------
g-7-7-7-7------------------
d-7-7-7-7--7-7-7-7-----
a-5-5-5-5--7-7-7-7-----
e--------------5-5-5-5-----

...quien    la         metio  o sola entro
  C#m      Bm      A       A    Bm   C#
e-4-----------2---------0-------0------2------4--
b-5-----------3---------3-------3------3------4--
g-6-----------4---------3-------3------4------6--
d-6-----------4---------3-------3------4------6--
a-4-----------2--------------------------2------4--
e------------------------------------------------------


parte instrumental
                                      
e---------------------------------
b-4----6---5-5--4------------
g-4-h-6---6-6--4-------------repetir 2 veces
d-4----6---6-6--4-------------
a----------------------------------
e----------------------------------


*************************************************
kirck777@aol.com